Take Me As I Am Tab - Fm Static






Song-   Take Me As I Am
Artist- FM Static
Album-  Dear Diary


CAmFG

-0--0--0--3-
-1--1--1--3-
-0--2--2--0-
-2--2--3--0-
-3--0--3--2-
----------3-




Piano-


-----3-1-0-1-3-------3-1-0-1-3---------3-1-0-1-3---------3-1-0-1-0-----|
--1------------------1-------------------------------------------------|
-------------------------------------2---------------------------------|
-------------------------------------------------------3---------------|
-----------------------------------------------------------------------|
-----------------------------------------------------------------------|



VERSE 1 :

C Am         F
This time I finally see the reason why I can't do this alone
C        Am F
It took some time and concentration to believe it this I know
C   Am           F
I need to build my faith sometimes but I am so comfortable in mind
C    Am      F
I'm up there's no more time to try to mess with this design


PRE-CHORUS:

C         GAm        F
Tonight's complete everyone's asleep and now I wanna say these words to you
C    G        Am           F
I'll be your hands take me as I am I just want to be with you


CHORUS:

C        G
Take me as I am cause i'm going
        Am          F
I was to scared to start now I'm to scared to let go
C        G
Take me as I am cause I'm growing
           Am         F
But it's so hard to tell when I'm not used this all


VERSE 2: (same as verse 1)

I lift my voice to sing out let the sound of my heart ring out
These hands aren't holding me down never again will I be without
I need to build my faith sometimes but I am so comfortable in mind
I'm up there's no more time to try to mess with this design






Like us on Facebook