Three Days Solo Tab - Fm Static






e|-------------------------------|
B|-------------------------------|
G|---1---55--33--11--55--33------|
D|-------------------------------|
A|-------------------------------|
E|-------------------------------|

e|-------------------------------|
B|-------------------------------|
G|---1--3-3h5p3---6-5-3-5-1~-----|
D|-------------------------------|
A|-------------------------------|
E|-------------------------------|

e|-------------------------------|
B|-------------------------------|
G|---1---55--33--11--55--333-----|
D|-------------------------------|
A|-------------------------------|
E|-------------------------------|

e|-------------------------------|
B|-------------------------------|
G|---5555h6-5------3~------------|
D|-------------------------------|
A|-------------------------------|
E|-------------------------------|








Like us on Facebook