Tonight (ver2) Tab - Fm Static






ARTIST: FM Static
SONG: Tonight

TUNING  E Standard

LEGENDS USED:
/ - Slide
 ~ - Let Ring
_______________________________________________________________________
INTRO
:-1-3---1---------1-3-1-3-1-----1-3---1---------1-3-4-3-1-:
:-----4---4---4-4-------------------4---4---4-4-----------:
:-----------3-----------------------------3---------------:
:---------------------------------------------------------:
:---------------------------------------------------------:
:---------------------------------------------------------:
_______________________________________________________________________
VERSE
:-1-3---1-------------1-3-1-----1-3---1-------------4-3-1-:
:-----4---4---4-4-------------------4---4---4-4-----------:
:-----------3-----------------------------3---------------:
:---------------------------------------------------------:
:---------------------------------------------------------:
:---------------------------------------------------------: [x2]

:-1-3---1---------1-3-1-3-1-:
:-----4---4---4-4-----------:
:-----------3---------------:
:---------------------------:
:---------------------------:
:---------------------------:

:-1-3---1---------1-3-1-3-1-----1-3---1---------1-3-4-3-1-:
:-----4---4---4-4-------------------4---4---4-4-----------:
:-----------3-----------------------------3---------------:
:---------------------------------------------------------:
:---------------------------------------------------------:
:---------------------------------------------------------:

:-1-3---1---------1-3-1-3-1-:
:-----4---4---4-4-----------:
:-----------3---------------:
:---------------------------:
:---------------------------:
:---------------------------:
_______________________________________________________________________
CHORUS
:-------------------------------:
:-------------------------------:
:-8-8-888/5-5-5---4-4-444/6-6-6-:
:-8-8-888/5-5-5---6-6-666/8-8-8-:
:-6-6-666/3-3-3---6-6-666/8-8-8-:
:-6-6-666/3-3-3---4-4-444/6-6-6-: [x4]

:--------------:
:--------------:
:-8~-----------:
:-8~-----------:
:-6~-----------:
:-6~-----------:
_______________________________________________________________________
INTERLUDE
:-1---1-3--1-----------1~-------:
:---4--------4---4---4----------:
:--------------3----------------:
:-------------------------------:
:-------------------------------:
:-------------------------------:
_______________________________________________________________________
VERSE
:-1-3---1---------1-3-1-3-1-----1-3---1---------1-3-4-3-1-:
:-----4---4---4-4-------------------4---4---4-4-----------:
:-----------3-----------------------------3---------------:
:---------------------------------------------------------:
:---------------------------------------------------------:
:---------------------------------------------------------: [x3]

:-1-3---1---------1-3-1-3-1-:
:-----4---4---4-4-----------:
:-----------3---------------:
:---------------------------:
:---------------------------:
:---------------------------:
_______________________________________________________________________
CHORUS
:-------------------------------:
:-------------------------------:
:-8-8-888/5-5-5---4-4-444/6-6-6-:
:-8-8-888/5-5-5---6-6-666/8-8-8-:
:-6-6-666/3-3-3---6-6-666/8-8-8-:
:-6-6-666/3-3-3---4-4-444/6-6-6-: [x4]

:--------------:
:--------------:
:-8~-----------:
:-8~-----------:
:-6~-----------:
:-6~-----------:
_______________________________________________________________________
BRIDGE
:-1---1-3--1-----------1~-----1---1-3--1-----------1~-----:
:---4--------4---4---4----------4--------4---4---4--------:
:---------------------------------------------------------:
:---------------------------------------------------------:
:---------------------------------------------------------:
:---------------------------------------------------------:

:-1-----1--3--1-----------31~--:
:----4-----------4-----4--------:
:-------------------3-----------:
:-------------------------------:
:-------------------------------:
:-------------------------------:
_______________________________________________________________________
CHORUS
:-------------------------------:
:-------------------------------:
:-8-8-888/5-5-5---4-4-444/6-6-6-:
:-8-8-888/5-5-5---6-6-666/8-8-8-:
:-6-6-666/3-3-3---6-6-666/8-8-8-:
:-6-6-666/3-3-3---4-4-444/6-6-6-: [x4]

:--------------:
:--------------:
:-8~-----------:
:-8~-----------:
:-6~-----------:
:-6~-----------:
_______________________________________________________________________
OUTRO
:-1-----1--3--1---------------1~~~--:
:----4-----------4----4-----4-------:
:-------------------3-----3---------:
:-----------------------3-----------:
:-----------------------------------:
:-----------------------------------:
_______________________________________________________________________
END






Like us on Facebook