Total Life Forever Tab - Foals




---------------------------------------------------------------------------
 TOTAL LIFE FOREVER - Foals
---------------------------------------------------------------------------
Tabbed by: DaveS

Tuning: Standard
 
Guitar 1 (LEFT)
Intro and verse (slightly muted)
e|------------------------------------------------------------------------|
B|-15-15-15-15-15-15-15-15-15-15-15-15-15-15-15-15-15-15-15-15-15---------|
G|------------------------------------------------------------------------|
D|------------------------------------------------------------------------|
A|------------------------------------------------------------------------|
E|------------------------------------------------------------------------|

Chorus
e|------------------------------------------------------------------------|
B|-15--17---------------15----------------15-17---------15----------------|
G|---------17--14-17-17----17-14--1717-17-------14--17------17------------|
D|------------------------------------------------------------------------|
A|------------------------------------------------------------------------|
E|------------------------------------------------------------------------|

e|------------------------------------------------------------------------|
B|-15--17-----------------------------------------------------------------|
G|---------17--14-17-17-17-14-14--17-17-14-14--17--17-14------------------|
D|------------------------------------------------------------------------|
A|------------------------------------------------------------------------|
E|------------------------------------------------------------------------|

Verse (as before)

Chorus

Singularity... (These are offbeat, listen for timing)
e|------------------------------------------------------------------------|
B|--15--15--15--15--15--15--15--15--15--15--15--15--15--15----------------|
G|------------------------------------------------------------------------|
D|------------------------------------------------------------------------|
A|------------------------------------------------------------------------|
E|--------------------------------------------------------etc-------------|

Verse

Last chorus and end section
e|------------------------------------------------------------------------|
B|----------------------------------------------13------------------------|
G|-14-14-14--1414141414-16-16-16-1616161616-16------16--14----------------|
D|------------------------------------------------------------------------|
A|------------------------------------------------------------------------|
E|------------------------------------------------------------------------|

Guitar 2 (RIGHT)
Intro and Verse (after G1 plays)
e|------------------------------------------------------------------------|
B|---------------------------------------------------------17171717171513-|
G|--14-1414------------------------------14-1414-----------14141414141414-|
D|--12-1212--15-1515---1010101014141210--12-1212--15-1515-----------------|
A|-----------15-1515------------------------------15-1515-----------------|
E|------------------------------------------------------------------------|

e|------------------------------------------------------------------------|
B|---------------------------------------------------------------171717---|
G|--14-1414------------------------------14-1414-----------------141414---|
D|--12-1212--15-1515---1010101014141210--12-1212--15-1515-----------------|
A|-----------15-1515------------------------------15-1515-----------------|
E|------------------------------------------------------------------------|

Theres also this loop in the background
e|------------------------------------------------------------------------|
B|------------------------------------------------------------------------|
G|------------------------------------------------------------------------|
D|------------------------------------------------------------------------|
A|-17--12~~---15--12~~--12-15-12------------------------------------------|
E|------------------------------------------------------------------------|

Chorus
e|------------------------------------------------------------------------|
B|------------------------------------------------------------------------|
G|------------------------------------------------------------------------|
D|-12--14---------------12---------------12-14---------12-----------------|
A|---------15--12-15-15----15-12--151515-------12--15------15-------------|
E|------------------------------------------------------------------------|

e|------------------------------------------------------------------------|
B|------------------------------------------------------------------------|
G|------------------------------------------------------------------------|
D|-12--14-----------------------------------------------------------------|
A|---------15--12-15-15-15-12-12--151515-12-12--15-15-12------------------|
E|------------------------------------------------------------------------|

Verse (as before)

Chorus

Singularity... (This is played at different times throughout, so listen out for it)
e|------------------------------------------------------------------------|
B|---17--13~~~~-----------13----------------------------------------------|
G|----------------------------14~~~~--------------------------------------|
D|------------------------------------------------------------------------|
A|------------------------------------------------------------------------|
E|------------------------------------------------------------------------|

Last time
e|---------------17~~~----------------------------------------------------|
B|-18~~~--20~~~-----------------------------------------------------------|
G|------------------------------------------------------------------------|
D|------------------------------------------------------------------------|
A|------------------------------------------------------------------------|
E|------------------------------------------------------------------------|

Back into verse

Last chorus and end section

e|------------------------------------------------------------------------|
B|------------------------------------------------------------------------|
G|------------------------------------------------------------------------|
D|------------------------------------------------------------------------|
A|-12--12--12--12-12-12-12-14-14--14141414-14-14--15--14--12--------------|
E|------------------------------------------------------------------------|

************************************

| /   slide up
|    slide down
| h   hammer-on
| p   pull-off
| ~   vibrato
| +   harmonic
| x   Mute note
| b   Bend
| pb  Pre-bend
| br  Bend release
| pbr Pre-bend release
| brb Bend release bend

************************************

ĂŽnscrie-te la newsletter

Join the ranks ! LIKE us on Facebook