Cold As Ice Solo (ver3) Tab - Foreigner






----------------------------------------------------------------------------
     Cold as ice - Foreigner
----------------------------------------------------------------------------
Tabbed by: Vintage-Player
Email: ecksteinkl@t-online.de

Tuning: Standard

e|--------------------------------------2-2--6-2--------6-2----------------|
B|--------------------------------4p3h4----------4~~--2-----4p2-4----------|
G|---------------------------4p3h4-----------------------------------------|
D|----------------1p0h1-4p3h4----------------------------------------------|
A|-1-2-------2p1h2---------------------------------------------------------|
E|------2p1h2--------------------------------------------------------------|

e|--------------------------------------------------/6---------------------|
B|---------------------------------4-4--2------3--6-/6---------------------|
G|---------------------------4p3h4--------4-3--3--7------------------------|
D|----------------1p0h1-4p3h4----------------------------------------------|
A|-1-2-------2p1h2---------------------------------------------------------|
E|------2p1h2--------------------------------------------------------------|


ĂŽnscrie-te la newsletter


Like us on Facebook