Feels Like The First Time Bass Tab - Foreigner






Wait until drums come in (0:11)

Intro:                 Verse 1:
G|----|----|----|------|--------|-----------|--------|-----------|
D|----|----|----|------|--------|-----------|--------|-----------|
A|----|----|----|------|--------|-----------|--------|-----------|
E|-3-3|-3-3|-3-3|-3-012|33333333|3333333-012|33333333|3333333-012|
                    

G|--------|-----------|------------|------------|--------|---------|
D|--------|-----------|------------|------------|--------|---------|
A|--------|-----------|00000000----|00000000----|22222222|2222222-3|
E|33333333|3333333-012|---------234|---------234|--------|---------|

Chorus:
G|--------|-----------|--------|---------|
D|--------|-----------|--------|------3/5|
A|--------|-----------|--------|---------|
E|33333333|3333333-012|33333333|333333---|

Verse 1:
G|--------|-----------|--------|-----------|------------------|
D|--------|-----------|--------|-----------|------------------|
A|--------|-----------|--------|-----------|0-0-0-0-0-0-0-0---|
E|33333333|3333333-012|33333333|3333333-012|-0-0-0-0-0-0-0-0--|

G|----------------|----------------|----------------|
D|----------------|----------------|---------------0|
A|0-0-0-0-0-0-0-0-|2-2-2-2-2-2-2-2-|2-2-2-2-2-2--02-|
E|-0-0-0-0-0-0-0-0|-2-2-2-2-2-2-2-2|-2-2-2-2-2-2----|

Verse 2:
G|----|----|----|-----|----|----|----|----|---9h11|-2--7h9|
D|2---|0---|----|-----|2---|0---|----|----|-2-----|0------|
A|----|----|3---|2----|----|----|3---|2---|-------|-------|
E|----|----|----|-----|----|----|----|----|0------|-------|

G|-------|----------|---9h11|-2--7h9|-------|--------|
D|-------|----------|-2-----|0------|-------|--------|
A|-3--3h5|0-2--2h3-2|-------|-------|-3--3h5|22222222|
E|3------|----------|0------|-------|3------|--------|

Chorus:
G|--------|-----------|--------|-----------|
D|--------|-----------|--------|-----------|
A|--------|-----------|--------|-----------|
E|33333333|3333333-012|33333333|3333333-012|

Middle Thing:
G|-------|-------|------|----432|-------|------|----432-0h2p0|
D|---5

ĂŽnscrie-te la newsletter


Like us on Facebook