Hot Blooded (ver3) Tab - Foreigner




Hot Blooded / Forigner
Tabbed by / patman99

intro , I would prefer if you picked this with your fingers ,

Play as many times needed
e------------------------------------------------------------|
B----------------5---5--6------------------------------------|
G----4h5--5--4-----------------------------------------------|
D----5----5--5-----------------------------------------------|
A----------------3-3-3--3------------------------------------|
E------------------------------------------------------------|


Verse.
You dont have to reed my mind ......
  (G)     (G)    (F)  (C)
e---------3--3-----------------------------------------------|
B---------3--3-----------------------------------------------|
G----------------------5-------------------------------------|
D--5--------------3----5-------------------------------------|
A--5------2--2----3----3-------------------------------------|
E--3------3--3----1------------------------------------------|

For the Chourse just play the intro picking part . Im pretty shure this is all that is 
throughtout this song , im shuree I missed a few little parts including the solo but What 
have is 100% Correct


If any comments or questons email me at , pguiney_@hotmail.com

ĂŽnscrie-te la newsletter


Join the ranks ! LIKE us on Facebook