Juke Box Hero Bass Tab - Foreigner






-------------------------------------------------------------------------------
     Juke Box Hero - Foreigner
-------------------------------------------------------------------------------
Tabbed by the Kombucha Mushroom (cmuir24@comcast.net)
From the album 4
100% correct

Intro
G---------------------------------------|
D---------------------------------------|
A-7/--------------7/--------------------|
e----x-x-0--x-x-0----x-x-0--x-x-0 play--| 2x

Fig.1
G---------------------------------|
D---------------------------------|
A-7/--------------7/--------------|
e----x-x-0--x-x-0----x-x-0--x-x-0-|

Fig.2 (It just blew him away...)
G-----------------------------------------------|
D-----------------------------------------------|
A-7/-------------------5--------7--------5------|
E----0-000000-0-0-0--0--------0--------0--------|
(Double time feel)

Verse: Fig.1 4x
       Fig.2
       Fig.1 2x
       Fig.2 2x

Pre Chorus:
Fig.3   (Rockin, ain't never gonna stop...)
G-----------------------------------|
D-----------------------------------|
A-----------------------------------|
E-7-7-7-7-7-7-7-7-5/7-77777-7-7-7-7-|

G-----------------------------------------|
D-----------------------------------------|
A-----------------------------------------|
E-5/7-7-77-7-77-7-7-7-5/7-7-77-7-7-7-7777-|

Chorus:
Fig.4  (Juke box hero got stars in his eyes...)
G-----------------------------------------------|
D-----------------------------------------------|
A-----------5-----------------5-----2-4-5-4-2-0-|
E-0----3---------0----0----3-----0--------------|

G----------------------------------------|
D----------------------------------------|
A-----------5-------------------5--------|
E-0----3---------0----0----3--------0----|

*Play Fig.3 over the guitar solo.

*No bass during guitar breaks.

The order to play the figures is very easy to pick out.
Have Fun!

| /  slide up
|   slide down
| h  hammer-on
| p  pull-off
| ~  vibrato
| +  harmonic
| x  Mute note

ĂŽnscrie-te la newsletter


Like us on Facebook