40 Ft Intro Tab - Franz Ferdinand






-------------------------------------------------------------------------------
     40' - Franz Ferdinand
-------------------------------------------------------------------------------
Tabbed by: Jon3782001
Email: Jon3782001@gmail.com

Tuning: EADGBE (Standard)
w/slight distortion and short echo/delay
Prefered Instrument: Fender/ Squire Telecaster Custom
Prefered Amp: Marshall (Any)

Please Comment

e|-------------------------------------------------------------------------|
B|-------------------------------------------------------------------------|
G|--------8----------------8---------8-------------8----------8------------|
D|----10------10---9---9----------8-----8---9---9--------10-------10---9---|
A|-------------------------------------------------------------------------|
E|-------------------------------------------------------------------------|

e|-------------------------------------------------------------------------|
B|-------------------------------------------------------------------------|
G|------8-------8----------------8-----------------------------------------|
D|--9-------8-------8---9---9----------------------------------------------|
A|-------------------------------------------------------------------------|
E|-------------------------------------------------------------------------|

e|-------------------------------------------------------------------------|
B|-------------------------------------------------------------------------|
G|-----------------------3---2---3---2---3---------------------------------|
D|----------4-----5--------------------------------------------------------|
A|----3--------------------------------------------------------------------|
E|-------------------------------------------------------------------------|

e|-------------------------------------------------------------------------|
B|-------------------------------------------------------------------------|
G|-------------------------------------------------------------------------|
D|----------4-----5-----------3---2---3---2---3----------------------------|
A|----3--------------------------------------------------------------------|
E|-------------------------------------------------------------------------|

ĂŽnscrie-te la newsletter


Like us on Facebook