All For You Sophia Bass Tab - Franz Ferdinand






All For You Sohpia
Bass
Standard Tuning

Tab by: Adrian Stone

Intro
G|---------------|
D|---------------|
A|---------------|
E|-10--10--3--3-5|

Verse
G|-----------------------------------------------|
D|-----------------------------------------------|
A|-----------------------------------------------|
E|-5--5--3--1--1--0--0--10--10/3--3--5--5--3--3--|

Chorus
G|-----0-----2-----3-----5/0|
D|-0-0---0-0---0-0---0-0----|
A|--------------------------|
E|--------------------------|

Verse
G|-----------------------------------------------|
D|-----------------------------------------------|
A|-----------------------------------------------|
E|-5--5--3--1--1--0--0--10--10/3--3--5--5--3--3--|

Chorus
G|-----0-----2-----3-----5/0|
D|-0-0---0-0---0-0---0-0----|
A|--------------------------|
E|--------------------------|

Bridge
G|------------------------------------------------|
D|------------------------------------------------|
A|------------------------------------------------|
E|-5--5--3--3--1--1--0--0--10--10/3--3--5--5--3--3|

Verse
G|-----------------------------------------------|
D|-----------------------------------------------|
A|-----------------------------------------------|
E|-5--5--3--1--1--0--0--10--10/3--3--5--5--3--3--|

Outro
G|----------------------------|
D|----------------------------|
A|----------------------------|
E|-5~~3~~1~~3~~5~~3~~1~~3~~5~~|

ĂŽnscrie-te la newsletter


Like us on Facebook