Cant Stop Feeling Tab - Franz Ferdinand






Cant Stop Feeling


MAIN RIFF

e|---------------------------------------------------------------------------|
B|---------------------------------------------------------------------------|
G|---------------------------------------------------------------------------|
D|---------------------------------------------------------------------------|
A|---7-7-7-7-7-5-3-2-3--------7-7-7-7-7-5-3-2-3-----7-7-7-7-7-7-5-3-2-3------|
E|-5------------------------5---------------------5--------------------------|

e|---------------------------------------------------------------------------|
B|---------------------------------------------------------------------------|
G|---------------------------------------------------------------------------|
D|-------------6-6-6-6-6-----------------------------------------------------|
A|---7-7-7-7-7-7-7-7-7-7-----------------------------------------------------|
E|-5-------------------------------------------------------------------------|


VERSE

Am                        Dm      C                      E
the salt starts stinging again, i cant stop feeling no i wont stop feeling
funs not fun            anymore i cant stop
Am           Dm             C            E
you leave me here on my own you leave me here on the floor

Am              Dm               C                E
you cant feel it you cant feel it you cant feel it you cant feel anymore
feel anymore    feel anymore     feel anymore

MAIN RIFF

VERSE

MAIN RIFF

INTERLUDE

Am           F                        G               E
So boy youre down and alone and youre soul is broken again

        F                       D                 E              
But you cant stop moving no you wont stop moving along


MAIN RIFF

OUTRO

Am                   Bm           C                E   
you cant feel you it cant feel it you cant feel it you cant feel anymore

Am

ĂŽnscrie-te la newsletter


Join the ranks ! LIKE us on Facebook