Cheating On You (ver2) Bass Tab - Franz Ferdinand






Okay, so the other version of this tab has wrong notes and in parts is written the most difficult
way possible.  Here's my take on it.  It's not too hard.  Just listen to it with the CD 
get the rhythm.

Key:
/ = Slide


Intro:
G-----------------------------------------------|
D-----------------------------------------------|
A------------------------9-10-10-10-10-10-10-10-|
E-9-10-10-10-10-10-10-10------------------------|  X4

G-----------------------------|
D-----------------------------|
A------------------------9-10-|
E-9-10-10-10-10-10-10-10------|


Verse: (The E9 is in parenthesis because he only hits it sometimes.)
G-------------------------------------------------|
D-------------------------------------------------|
A--------------------------9-10-10-10-10-10-10-10-|
E-(9)-10-10-10-10-10-10-10------------------------|


Chorus: (Don't slide to the first A8 the first time you play it, but slide to it when 
repeat.  At the end of the chorus, play A10 a whole lot, in eighth notes.)
G-----------------------------------------------------------|
D-----------------------------------------------------------|
A--(/)--8-8-8-8--/--10-10-10-10--/--8-8-8-8--/--10-10-10-10-|
E-----------------------------------------------------------|  X2

ĂŽnscrie-te la newsletter


Like us on Facebook