Come On Home Solo Tab - Franz Ferdinand






i got a little bored so i tabbed the piano part of this awesome song for guitar.

i've split it up into the different sections for you :)

e|---------------------|--------------|----------------|
G|---------------------|--------------|----------------|
B|---------------------|--------------|----------------|
D|-----------8-------8-|--------------|----------------|
A|0-3-7-12-----12--8---|14--10--7--10-|14--11--7--3----|
E|---------------------|--------------|-------------7--|

e|---------------------|--------------|-----------------|
G|---------------------|--------------|-----------------|
B|---------------------|--------------|-----------------|
D|-----------8-------8-|--------------|-----------------|
A|0-3-7-12-----12--8---|14--10--7--10-|14--11--7--3----0|
E|---------------------|--------------|-------------7---|

ĂŽnscrie-te la newsletter


Like us on Facebook