Come On Home Tab - Franz Ferdinand






Ok so maybe its not the whole song but this song's made up mostly of this riff.
Standard tuning
come on home
e-------------------------------------------------------|
b-------------------------------------------------------|
g-------------------------------------------------------|
d-------------------------------------------------------|
a-----------------------7-7-7-7-8-8-8-8-8-8-8-8-8-8-8-8-|
E5-5-5-5-5-5-5-5-5-5-5-5--------------------------------|

e---------------------------------------------------|
b---------------------------------------------------|
g---------------------------------------------------|
d-------------------------6-6-6-6-6-6-6-6-6---------|
a-7-7-7-7-7-7-7-7-7-7-7-7-------------------7-------|
E---------------------------------------------8-7-5-|

If I haven't written enough of the notes down, just keep on striking at the note-if 
heard the song, you might know what I mean-it's like a constant strum of the string.

its me again-mucho problemos? mel_mosha@hotmail.com

ĂŽnscrie-te la newsletter


Like us on Facebook