Dark Of The Matinee Intro Tab - Franz Ferdinand






e|------------------------------------------------------------------------------|
B|------------------------------------------------------------------------------|
G|------------------------------------------------------------------------------|
D|--------2----------2-------------------2---------------2----------------------|
A|---44---------44-------------44----------------44-----------------------------|
E|------------------------------------------------------------------------------|

e|-----------------------------------------------------------------------------------|
B|-----------------------------------------------------------------------------------|
G|-----------------------------------------------------------------------------------|
D|--------0------------0-------------------------------------------------------------|
A|---224--------224------------------------------------------------------------------|
E|-----------------------------------------------------------------------------------|

e|---------------------------------------------------------------------------------|
B|---------------------------------------------------------------------------------|
G|---------2------------21---------------------------------------------------------|
D|-----44----------4---------4-----------------------------------------------------|
A|---------------------------------------------------------------------------------|
E|---------------------------------------------------------------------------------|

if any proplems contact me at aim or aol thewolfpacisback@aol.com

| /  slide up
|   slide down
| h  hammer-on
| p  pull-off
| ~  vibrato
| +  harmonic
| x  Mute note
===============================================================================

ĂŽnscrie-te la newsletter


Like us on Facebook