Do You Want To (ver2) Bass Tab - Franz Ferdinand






Intro
G|------------------|-------5----|
D|8-8-8-8-8-8-8-8-8-|-7-7-7------|
A|------------------|---------7--|
E|------------------|------------|
 | 1x               | 4x         |

G|----------------------------------------|
D|----------------------------------------|
A|-7-7-6-7-7-6-7-7-6-7-6-7-8--9-9-9-9-9-9-|
E|----------------------------------------|
 | 1x                                     |

Chorus
G|---------------------------------------------|----5---------10------|
D|----5---------5--------------5---------5-----|----------------------|
A|-----------------------------------------5-6/|-3-3---3-3/8-8----8-8-|
E|3-3---3-3-3-3---3-0-5-6--3-3---3-3-3-3-------|----------------------|

Bridge/Chorus
G|------------------------10-10---10-10-----10-10----10-10----|
D|-7-7--7-7--7-7--7-7-----------------------------------------|
A|--------------------5/-8------8---------8--------8----------|
E|5----5----5----5--------------------------------------------|

Break
G|-----------------------------|
D|----5---------5--------------|     
A|-----------------------------|
E|3-3---3-3-3-3---3-0-5-6------|
 | x1                          |

Bridge
Verse

Outro
G|-----------------------------|
D|----5---------5--------------|     
A|-----------------------------|
E|3-3---3-3-3-3---3-0-5-6------|
 | x5                          |

G|-----------------------------|
D|-----------------------------|     
A|-----------------------------|
E|3-3-3-3-3-3-3-3-3-3-3-3-3-3-3|
 | x1                          |

G|----------------------------------------|
D|----------------------------------------|
A|-7-7-6-7-7-6-7-7-6-7-6-7-8--9-9-9-9-9-9-|
E|----------------------------------------|
 | x1                                     |

Back to verse riff

G|-----------------------|
D|-----------------------|
A|--------3~----------3~-|
E|3-3-3-3-----3-3-3-3----|
 | x1                    |

Just guitar and drums till the end of the song.

Have fun playing this.

ĂŽnscrie-te la newsletter


Like us on Facebook