Do You Want To (ver4) Bass Tab - Franz Ferdinand






Intro
G|-------------------------------------5-----------5-------------5-------------5---------|
D|-88888888-88888888-7-7-7-------7-7-7-------7-7-7-------7-7-7---------------------------|
A|----------------------------------------7-----------7-------------7------------7-------|
E|---------------------------------------------------------------------------------------|

G|----------------------------------------------|
D|----------------------------------------------|
A|-33-1-33-1-33-1-313-5555-5555-----------------|
E|----------------------------------------------|

Chorus
G|-------------------------------|
D|------5-------5----------------|
A|-------------------------------|
E|-3-3---3-3-33---3-0-56---------|

G|-------------------------|
D|-----5--------5----------|
A|-------------------------|
E|-3-3---3-3-33---3--------|

G|-------5---------10-------------|
D|--------------------------------|
A|-63-3---3-3/8-8----8-8---------|
E|--------------------------------|

G|-------------------------------|
D|-----5--------5----------------|
A|-------------------------------|
E|-3-3---3-3-33---3-0-56---------|

G|-------------------------|
D|-----5--------5----------|
A|-------------------------|
E|-3-3---3-3-33---3--------|

G|-------5---------10-------------|
D|--------------------------------|
A|-63-3---3-3/8-8----8-8---------|
E|--------------------------------|

G|---------------------------------------|
D|-----5--------5------------------------|
A|-----------------------------|     X 2-|
E|-3-3---3-3-33---3-0-56-----------------|

G|-------------------------|
D|-----5-------5-----------|
A|-------------------------|
E|-3-3---3-3-33---3--------|

G|-------5---------10-------------|
D|--------------------------------|
A|-63-3---3-3/8-8----8-8---------|
E|--------------------------------|

G|-------------------------------|
D|------5-------5----------------|
A|-------------------------------|
E|-3-3---3-3-33---3-0-56---------|

Bridge
G|----------------------------------------10-10----10-10----10-10----10-10----------|
D|---7-7----7-7---7-7---7-7---------------------------------------------------------|
A|--------------------------------5/8-8----------8--------8-------8-----------------|
E|-5------5-----5-----5-------------------------------------------------------------|

G|-----------------------------------|
D|----5------------------------------|
A|-----------------------------------|
E|-3----3---3-3---3-3---0-56---------|

G|----------------------------------------10-10----10-10----10-10----10-10----------|
D|---7-7----7-7---7-7---7-7---------------------------------------------------------|
A|--------------------------------5/8-8----------8--------8--------8----------------|
E|-5-----5------5-----5-------------------------------------------------------------|

G|-------------------------------|
D|-----5--------5----------------|
A|-------------------------------|
E|-3-3---3-3-33---3-0-56---------|

G|-------------------------|
D|------5-------5----------|
A|-------------------------|
E|-3-3---3-3-33---3--------|

G|-------5---------10-------------|
D|--------------------------------|
A|-63-3---3-3/8-8----8-8---------|
E|--------------------------------|

G|-------------------------------|
D|------5-------5----------------|
A|-------------------------------|
E|-3-3---3-3-33---3-0-56---------|

G|-------------------------|
D|------5-------5----------|
A|-------------------------|
E|-3-3---3-3-33---3--------|

G|-------5---------10-------------|
D|--------------------------------|
A|-63-3---3-3/8-8----8-8---------|
E|--------------------------------|

G|-------------------------------|
D|------5-------5----------------|
A|-------------------------------|
E|-3-3---3-3-33---3-0-56---------|

G|----------------------------------------10-10----10-10----10-10----10-10------------|
D|---7-7----7-7---7-7---7-7-----------------------------------------------------------|
A|--------------------------------5/8-8----------8--------8--------8------------------|
E|-5------5------5------5-------------------------------------------------------------|

G|--------------------------------------|
D|------5-------5-----------------------|
A|-----------------------------|    x 2-|
E|-3-3---3-3-33---3-0-56----------------|

Breakdown
G|---------------------------------------|
D|------5-------5------------------------|
A|-----------------------------|     X 5-|
E|-3-3---3-3-33---3-0-56-----------------|

G|-------------------------------|
D|-------------------------------|
A|----------------------|    X 2-|
E|-5555-555-0-5/7----------------|

G|-----------------------------------------|
D|-----------------------------------------|
A|-3333-3333---5555-5555555----------------|
E|-----------------------------------------|

G|-------------------------------|
D|------5-------5----------------|
A|-------------------------------|
E|-3-3---3-3-33---3-0-56---------|

G|-------------------------|
D|------5-------5----------|
A|-------------------------|
E|-3-3---3-3-33---3--------|

G|-------5---------10-------------|
D|--------------------------------|
A|-63-3---3-3/8-8----8-8---------|
E|--------------------------------|

G|-------------------------------|
D|------5-------5----------------|
A|-------------------------------|
E|-3-3---3-3-33---3-0-56---------|

G|-------------------------|
D|------5---------5--------|
A|-------------------------|
E|-3-3---3-3-33------3-----|

G|---------5----------10----------|
D|--------------------------------|
A|-63-3---3-3/8-8-------8-8------|
E|--------------------------------|

EndingRings Until End
G|---------------|            G|-------------------------|
D|---------------|            D|-------------------------|
A|-----------3~-|  X 2            A|-3~---3~---|     X 6-|
E|-3-3-3-3-----|            E|---------------------------|

ĂŽnscrie-te la newsletter


Like us on Facebook