Eleanor Put Your Boots On Tab - Franz Ferdinand






Intro

G  Bm x3

VERSE
C                      Bm 
Eleanor put those boots back on
         C              Bm  
Kick the heels into the Brooklyn dirt
  C             Bm           D#dim
I know it isn't dignified to run
           G           D                       Bm 
But if you run You can run to the Coney Island rollercoaster
G           D                 C               Bm
Ride to the highest point and leap across the filthy water
C              Bm                             F
Leap until the Gulf Stream's brought you down

G                         Bm        C
I could be there when you land x3

Gm    C/G x2

Gm           Bm         Em         C         Em          B7
|------------------------------------------------------------|
|------------------------------------------------------------|
|------------------------------------------------------------|
|------------2--2-0------------------------------------------|
|-1----0-1----------3----2--2-0----0--0-------2--2-0---------|
|----3--------------------------3-------3-2----------3---2---|

Em    C   Em   B7

VERSE
So Eleanor take a Greenpoint three-point turn
Towards the hidden sun
You know you are so elegant when you run
Oh if you run
You can run to that statue with the dictionary
Climb to her fingernail and
Leap, yeah take an atmospheric leap and
Let the jet stream set you down

G                         Bm            C
I could be there when you land x3

Gm          C/G           Gm           C/G         Gm
|---------------------------------------------------------------|
|---------------------------------------------------------------|
|---------------------------------------------------------------|
|------------2--2-0----0---------------2-2-0---0----------------|
|-------3------------3-----1----0--1---------3-----1----0-1-----|
|-3---------------------------3-----------------------3---------|

C/G         Em       C           Em          D  
|---------------------------------------------------------------|
|---------------------------------------------------------------|
|---------------------------------------------------------------|
|-2-2-0---------------------------------------------------------|
|--------3--2-2-0-----0-0---------2--2-0------------------------|
|------------------3--------3--2---------3---2------------------|

G                       D
So Eleanor put those boots back on
G                  D              C
Put the boots back on and run and run
             Em
Come on over here 
C            Em
Come on over here
C            G
Come on over here

ĂŽnscrie-te la newsletter


Like us on Facebook