Evil And A Heathen Intro Tab - Franz Ferdinand






E----------------------------------------------------------------------------|
A----------------------------------------------------------------------------|
D-6---6--7----6---4-----------------------------6-----6-----7---4------------|
G----------------------7------6----4---6----7----------------------7--6---4--|
B----------------------------------------------------------------------------|
e----------------------------------------------------------------------------|

E----5---5-------------------------------------------------------------------|
A----7---7-------------------------------------------------------------------|
D----7---7-------------------------------------------------------------------|
G----------------------------------------------------------------------------|
B----------------------------------------------------------------------------|
e----------------------------------------------------------------------------|

ĂŽnscrie-te la newsletter


Like us on Facebook