Fallen Bass Tab - Franz Ferdinand






Artist-Franz Ferdinand
Song-The Fallen
Album-You could have it So Much Better
Tabbed by-ianl

Standard tuning E,A,D,G

Intro
|--------------|x4 
|------88------|   
|-3-3-----88-8-|   
|--------------| 

|-------------------------------------------------------------|
|-------------------------------------------------------------|
|-------------------------------------------------------------|
|-8-8-8-8-8-8-8-8-0-0-00-0-0-0-3-3-33-3-3-3/*1313131313131313*|*13 not 1 3

Verse1 (x3) - () means only sometimes played.
|----------------------------|x4 |-----------------|
|----------------------------|   |-----------------|
|----------------------------|   |-----------------|
|-5-5-5-5(6)/13-13-13-13(12)-|   |-3-3-3-3-4-4-4-4-|

Chorus
|--------------|x3
|------88------|   
|-3-3-----88-8-|   
|--------------| 

|-------------------------------------------------------------|
|-------------------------------------------------------------|
|-------------------------------------------------------------|
|-8-8-8-8-8-8-8-8-0-0-00-0-0-0-3-3-33-3-3-3/-1313131313131313-|

Verse2 (x1)
|---------------------|x2 |-----------------|
|---------------------|   |-----------------|
|---------------------|   |-----------------|
|-5-5-5-5/13-13-13-13|   |-3-3-3-3-4-4-4-4-|

Chorus2
|--------------|x2
|------88------|   
|-3-3-----88-8-|   
|--------------| 

|-------------------------------------------------------------|
|-------------------------------------------------------------|
|-------------------------------------------------------------|
|-8-8-8-8-8-8-8-8-0-0-00-0-0-0-3-3-33-3-3-3/-1313131313131313-|

Verse1 x3

Chorus3
|--------------|x6
|------88------|   
|-3-3-----88-8-|   
|--------------| 

|-------------------------------------------------------------|
|-------------------------------------------------------------|
|-------------------------------------------------------------|
|-8-8-8-8-8-8-8-8-0-0-00-0-0-0-3-3-33-3-3-3/-1313131313131313-|

Bridge
|----------------------------------------|
|----------------------------------------|
|-33-33-555-333-555-33-----------------|
|---33-55--------------3333333333333333-|

|-----------------|x3 |-------------|
|-----------------|   |-------------|
|-----------------|   |-------------|
|-5-5-7/-13-13-12|   |-3-3-3-4-4-4-|

Verse1 x1

Chorus4
|--------------|x16
|------88------|   
|-3-3-----88-8-|   
|--------------| 

|-------------------------------------------------------------|
|-------------------------------------------------------------|
|-------------------------------------------------------------|
|-8-8-8-8-8-8-8-8-0-0-00-0-0-0-3-3-33-3-3-3/-1313131313131313-|

ĂŽnscrie-te la newsletter


Like us on Facebook