Get Away Bass Tab - Franz Ferdinand






-------------------------------------------------------------------------------
     Get Away - Franz Ferdinand
-------------------------------------------------------------------------------

Tabbed By : OrianaBorealis

Tuning: Standard


The parts:

Intro
G|--------------------------|
D|--------------------------|
A|-------------2--5-5-5-----|
E|-----2--5-5---------------|    X2


Verse
G|------------------------------------------------|
D|--------------------2-2-------0-0-------4-4-----|
A|----------4-4--0-0-------2-2-------4-4----------|
E|-----2-2----------------------------------------|    X8


Bridge
G|--------------------------------------------------|
D|--------------------------------------------------|
A|-----2-2------------------------------------------|
E|-----------2-2--3-3--5-5---0-0--2-2--3-3--5-5-----|    X2

G|----------------------------|
D|----------------------------|
A|----------------------------|
E|-----0-0--2-2--3-3--5-5-----|    X3


End
G|-----------|
D|-----------|
A|-----------|
E|-----2-----|



The order:

Intro
Verse 
Bridge
Intro
Verse
End

Have fun!


===============================================================================

ĂŽnscrie-te la newsletter


Like us on Facebook