Im Your Villain Intro Tab - Franz Ferdinand






I'm Your Villain Intro

Tabbed by Aaron Cunningham
Comments to aaron_monkey@hotmail.com

e|----------------------------|
B|----------------------------|
G|--------7--7-----7-----7----|     X2
D|--------------X-----X-------|
A|----------------------------|
E|----------------------------|

e|----------------------------|
B|----------------------------|
G|----------------------------|     X2
D|--------7--7-----7-----7----|
A|--------------X-----X-------|
E|----------------------------|
Play all that twice

e|----------------------------|
B|-------------10-------------|
G|---7--9--10-----------------|
D|----------------------------|
A|-----------------7-7-6-5----|
E|----------------------------|

e|---------------------------------|
B|-------------10------------------|
G|---7--9--10---------9----9-------|
D|---------------------------------|
A|-------------------------------0-|
E|---------------------------------|

|-------------------------------------------------------------------|
|-------------------------------------------------------------------|
|---5-7-5------------5-7-5-------------5-7-5------------5-7-5-----7-|
|-7-------7-5-7----7-------7-5-7-----7-------7-5-7----7-------7-5---|
|-------------------------------------------------------------------|
|-------------------------------------------------------------------|

ĂŽnscrie-te la newsletter


Like us on Facebook