L Wells Bass Tab - Franz Ferdinand






-------------------------------------------------------------------------------
     L. Wells - Franz Ferdinand
-------------------------------------------------------------------------------

Tabbed By : OrianaBorealis
e-mail: Oriana.Borealis@gmail.com
Tuning: Standard
Notes: Numbers in parentheses mean play a note that many times. (X?) means I couldn't
figure out how many times the note is played, so just listen to the song and play it
so it sounds right.  This is a really fun song to play; enjoy!


Verse 1
G|-----------------|
D|-----------------|
A|---7-7-7-----5---|
E|---------6-7-----| X2

G|-----------------------------------------------------|
D|-----------------------------7---7---7---7-5-4-------|
A|---7-7-7-----5-5-5-5-----3---------------------7-5---|
E|---------6-7---------4-5---5---5---5---5-------------| X2

Chorus
G|---5(X?)-------5-7(X3)-5------------------------------|
D|---------5(X?)-----------7(X3)-5----------------------|
A|---------------------------------8(let ring)--8-7-5---|
E|------------------------------------------------------|

G|---5(X?)-------5-7(X3)-5-------------|
D|---------5(X?)-----------7(X3)-5-----|
A|---------------------------------8---|
E|-------------------------------------|

Verse 2
G|-----------------|
D|-----------------|
A|---7-7-7-----5---|
E|---------6-7-----| X2

G|-----------------------------------------------------|
D|-----------------------------7---7---7---7-5-4-------|
A|---7-7-7-----5-5-5-5-----3---------------------7-5---|
E|---------6-7---------4-5---5---5---5---5-------------| X2

Chorus
G|---5(X?)-------5-7(X3)-5------------------------------|
D|---------5(X?)-----------7(X3)-5----------------------|
A|---------------------------------8(let ring)--8-7-5---|
E|------------------------------------------------------|

G|---5(X?)-------5-7(X3)-5-------------|
D|---------5(X?)-----------7(X3)-5-----|
A|---------------------------------8---|
E|-------------------------------------|

Bridge
G|----------------------------------------------|
D|----------------------------------9-7(X8)-----|
A|---7(X4)-9(X4)-10(X8)-8(X4)-7(x3)---------7---|
E|----------------------------------------------|

G|-------------------------------------------|
D|----------10(X16)--------10(X16)-----------|
A|---8(X16)---------8(X16)---------8---8-8---|
E|-------------------------------------------|


G|-----------------|
D|-----------------|
A|---7-7-7-----5---|
E|---------6-7-----| X2

G|-----------------------------------------------------|
D|-----------------------------7---7---7---7-5-4-------|
A|---7-7-7-----5-5-5-5-----3---------------------7-5---|
E|---------6-7---------4-5---5---5---5---5-------------| X2

Chorus
G|---5(X?)-------5-7(X3)-5------------------------------|
D|---------5(X?)-----------7(X3)-5----------------------|
A|---------------------------------8(let ring)--8-7-5---|
E|------------------------------------------------------|

G|---5(X?)-------5-7(X3)-5-------------|
D|---------5(X?)-----------7(X3)-5-----|
A|---------------------------------8---|
E|-------------------------------------|

Outro
G|-----------------|
D|-----------------|
A|---7-7-7-----5---|
E|---------6-7-----| X2

G|---------------------------------------------------------|
D|---------------------7-7-7-----5-----------6-7-7-7-5-----|
A|---7-7-7-----5-5-5-5-------6-7---8-8-8-7-8-----------7---|
E|---------6-7---------------------------------------------| 

G|-----------------|
D|---5-7-5---------|
A|---------7-5-----|
E|-------------8---|

END

ĂŽnscrie-te la newsletter


Join the ranks ! LIKE us on Facebook