Love And Destroy Bass Tab - Franz Ferdinand






Love And Destroy
Bass
Standard Tuning

Tab by: Matilda Makemsom
Intro
G|--------------------------------------------------------------------|
D|--------------------------------------------------------------------|
A|--------------------------------------------------------------------|
E|--6---------------8---------------5---------------6-----------------|

G|--------------------------------------------------------------------|
D|--------------------------------------------------------------------|
A|--5-5-5-5-5-5-5-5---------------------------------------------------|
E|------------------6-6-6-6-6-6-6-6-3-3-3-3-3-3-3-3-5-5-5-5-5-5-5-5---|

Riff-1
G|------------------------------------|
D|------3-------7-------0-------0-----|
A|--5-5---5/8-8---8-2-2---2-2-2---2---|
E|------------------------------------|   x12

Riff-2
G|------------------------------------|
D|------3-------7--/9-9-9-9-9-9-9-----|
A|--5-5---5/8-8---8-------------------|
E|------------------------------------|   x4

Riff-1
G|------------------------------------|
D|------3-------7-------0-------0-----|
A|--5-5---5/8-8---8-2-2---2-2-2---2---|
E|------------------------------------|   x9

Riff-2
G|------------------------------------|
D|------3-------7--/9-9-9-9-9-9-9-----|
A|--5-5---5/8-8---8-------------------|
E|------------------------------------|   x4

Riff-1
G|------------------------------------|
D|------3-------7-------0-------0-----|
A|--5-5---5/8-8---8-2-2---2-2-2---2---|
E|------------------------------------|   x8

Chorus
G|--------------------------------------------------------------------|
D|--------------------------------------------------------------------|
A|--------------------------------------------------------------------|
E|--6-6-6-6-6-6-6-6-8-8-8-8-8-8-8-8-8-5-5-5-5-5-5-6-6-6-6-6-6-6-6-6---|

G|--------------------------------------------------------------------|
D|--------------------------------------------------------------------|
A|--5-5-5-5-5-5-5-5---------------------------------------------------|
E|------------------6-6-6-6-6-6-6-6-3-3-3-3-3-3-3-3-5-5-5-5-5-5-5-5---|   x2

Chorus-Out
G|--------------------------------------------------------------------|
D|--------------------------------------------------------------------|
A|--------------------------------------------------------------------|
E|--6-6-6-6-6-6-6-6-8-8-8-8-8-8-8-8-8-5-5-5-5-5-5-6-6-6-6-6-6-6-6-6---|

Riff-1
G|------------------------------------|
D|------3-------7-------0-------0-----|
A|--5-5---5/8-8---8-2-2---2-2-2---2---|
E|------------------------------------|   x8

Riff-2
G|------------------------------------|
D|------3-------7--/9-9-9-9-9-9-9-----|
A|--5-5---5/8-8---8-------------------|
E|------------------------------------|   x3

End
G|------------------------------------|
D|------3-------7---9-----------------|
A|--5-5---5/8-8---8-------------------|
E|------------------------------------|

ĂŽnscrie-te la newsletter


Join the ranks ! LIKE us on Facebook