Love And Destroy Intro Tab - Franz Ferdinand






-------------------------------------------------------------------------------
     Love and Destroy (intro) - Franz Ferdinand
-------------------------------------------------------------------------------
Tabbed by: Michiel Wouters
Email: michiel_wouters@operamail.com

Tuning: eadgbe



e|---------------------------------------------------------------------------|
B|---------------------------------------------------------------------------|
G|-5-2---2--2-----------------5-2--------------------------------------------|
D|-----3---3------2-3-3-5-7-------3---3-2-3-2-3-2-3-2-3--7-7-5-4-5-4---------|
A|--------------0-------------------0----------------------------------------|
E|---------------------------------------------------------------------------|

e|---------------------------------------------------------------------------|
B|---------------------------------------------------------------------------|
G|-7-7-5-4-5-4---------7-7-5-4-5-4 -------7-7-5-4-5-4------------------------|
D|-------------2-2-2-2-------------2-2-2-2-----------2-2-2-2-5-5-7-9-7-2-2-2-|
A|---------------------------------------------------------------------------|
E|---------------------------------------------------------------------------|

This is my first tab, so I would like some feedback


===============================================================================

ĂŽnscrie-te la newsletter


Join the ranks ! LIKE us on Facebook