Michael Bass Tab - Franz Ferdinand






riff
G|--------------------------------------------------------------------|
D|----------------------------------2---2---2---2---4---4---4---------|
A|--------------------------------------------------------------------|
E|--2---2---2---2---4---4---4---4-----------------------------0-2-0---|

G|------------------------------------------------------------------------------------|
D|----------------------------------2---2---2---2---2---2---2---2---2---2---2---2-----|
A|------------------------------------------------------------------------------------|
E|--2---2---2---2---4---4---4---4-----------------------------------------------------|

Chorus
G|--------------------------------------------------------------------|
D|--------------------------------------------------------------------|
A|--4-4-4-4-4-4-4-4/7-7-7-7-7-7-7-7/9-9-9-9-9-9-9-9-9-9-9-9-9---------|
E|------------------------------------------------------------0---0---| X3

G|--------------------------------------------------------------------|
D|--------------------------------------------------------------------|
A|--4-4-4-4-4-4-4-4/7-7-7-7-7-7-7-7/8-8-8-8-8-8-8-8-8-8-8-8-8-8-8-8---|
E|--------------------------------------------------------------------|

Bridge
G|--------------------------------------------------------------------|
D|----------------------------------2---------------4-----------------|
A|--------------------------------------------------------------------|
E|--2---------------4-----------------------------------------0-0-0---| X2

G|--------------------------------------------------------------------|
D|----------------------------------2---2---2---2---4---4---4---------|
A|--------------------------------------------------------------------|
E|--2---2---2---2---4---4---4---4-----------------------------0-2-0---|

Last-Chorus
G|--------------------------------------------------------------------|
D|--------------------------------------------------------------------|
A|--4-4-4-4-4-4-4-4/7-7-7-7-7-7-7-7/9-9-9-9-9-9-9-9-9-9-9-9-9---------|
E|------------------------------------------------------------0---0---| X3

G|--------------------------------------------------------------------|
D|--------------------------------------------------------------------|
A|--4-4-4-4-4-4-4-4/7-7-7-7-7-7-7-7/9-9-9-9-9-9-9-9-9-9-9-9-9-9-9-9---|
E|--------------------------------------------------------------------| 

G|--------------------------------------------------------------------|
D|------------------11------------------------------------------------|
A|--9-9-9-9-9-9-9-9---------------------------------------------------|
E|--------------------------------------------------------------------|

ĂŽnscrie-te la newsletter


Join the ranks ! LIKE us on Facebook