Shopping For Blood Bass Tab - Franz Ferdinand






Franz Ferdinand - Shopping For Blood

Tabbed By : ChrKr
e-mail: chrkr@gmx.at

Tuning: Standard

Intro, Verse & Main Part Of The Song

  C       G           Eb          C        A     G A     G A     G A     G
G|----------------------------------------|--------------------------------|
D|----------------------------------------|--------------------------------|
A|--------10-10-10-10---------------------|--------------------------------|
E|8-8-8-8-------------11-11-11-11-8-8-8-8|5-5-5-3-5-5-5-3-5-5-5-3-5-5-5-3/|
  
  repeat very often


Bridge

  C   Eb  F   Eb  C   Eb  F   Eb
G|--------------------------------|
D|--------------------------------|
A|----6-6-8-8-6-6-----6-6-8-8-6-6-|
E|8-8-------------8-8-------------|




Chorus (also played during the solo)


  C       Eb      F       Eb       C       Eb      F       Eb
G|--------------------------------|--------------------------------|
D|--------------------------------|--------------------------------|
A|--------6---6-6-8---8-8-6---6-6-|--------6---6-6-8---8-8-6---6-6-|
E|8---8-8-------------------------|8---8-8-------------------------|


End

G|-|
D|-|
A|-|
E|8|

enjoy

ĂŽnscrie-te la newsletter


Join the ranks ! LIKE us on Facebook