Take Me Out (ver8) Tab - Franz Ferdinand






Intro
|----------------------------------------------------------------------------|
|----------------------------------------------------------------------------|
|-9--------------------------------------------------------------------------|
|-9--------------------------------------------------------------------------|
|-7--7-7-7-7-7-7-7-7-7-7-7-7-7-7-7-7-7-7-7-7-7-7-7-7-7-7-7-7-7-7-7-7-7-7-----|
|-0--------------------------------------------------------------------------|
                                                        so if your lonely

|-------------------------------------------------------------------------|
|-------------------------------------------------------------------------|
|-------------------------------------------------------------------------|X4
|--5-5-5-5-5-5-5-5--3-3-3-3-3-3-3-3--9-9-9--9--7--7-7-7-7-5-5-5-5-5-5-5-5-|
|--7-7-7-7-7-7-7-7--4-4-4-4-4-4-4-4--10-10-10-10--9-9-9-9-7-7-7-7-7-7-7-7-|
|-------------------------------------------------------------------------|
you know im here waiting for you...

|----------------------------------------------------------------------------|
|----------------------------------------------------------------------------|
|----------------------------------------------------------------------------|
|---5-5-5-5--7-7-7-7---------------------------------------------------------|
|--------------------7-7-7-7-------------------------------------------------|
|----------------------------3-3-3-3--5-5-5-5--0-0-0-0-0-0-0-0-3-3-3-3-3-3-3-|

|----------------------------------------------------------------------------|
|----------------------------------------------------------------------------|
|----------------------------------------------------------------------------|
|----------------------------------------------------------------------------|
|--------------------------------------------------7-7-7-7-7-7-7-7-7-7-7-7-7-|
|-9-9-9-9-9-9-9-9-0-0-0-0-0-0-0-0-5-5-5-5-5-5-5-5----------------------------|


|----------------------------------------------------------------------------|
|----------------------------------------------------------------------------|
|---------------------------9-9-9-9-9-9-9-9-9-9-9-9-9-9-9-9------------------|
|-9-9-9-9-9-9-9-9-9-9-9-9-9-9-9-9-9-9-9-9-9-9-9-9-9-9-9-9-9------------------|
|-7-7-7-7-7-7-7-7-7-7-7-7-7-7-7-7-7-7-7-7-7-7-7-7-7-7-7-7-7------------------|
|----------------------------------------------------------------------------|
adjuts the tempo of the picking to the beat of bass in song

------------------------------------------------|
------------------------------------------------|
9---9---9---9-9-9-9---9---9---9---9-9-9-9-------|
9---9---9---9-9-9-9---9---9---9---9-9-9-9-------|X2
7---7---7---7-7-7-7---7---7---7---7-7-7-7-------|
------------------------------------------------|


||-----------------------------|----------------------------|
||---8-------------------------|--8-------------------------|
||-------9---9p7-----7---9-----|------9---9p7-----7---9-----|
||---------------9-------------|--------------9-------------|
||-----------------------------|----------------------------|X2
||-----------------------------|----------------------------|


----------------------------|------------------------------------|
--8-------------------------|------------------------------------|
------9---9p7-----7---9-----|-11-11-11-11-11-11-11-11-11-11-7-7--|
--------------9-------------|------------------------------------|
----------------------------|------------------------------------|
----------------------------|------------------------------------|

------------------------------------------------|
------------------------------------------------|
9---9---9---9-9-9-9---9---9---9---9-9-9-9-------|
9---9---9---9-9-9-9---9---9---9---9-9-9-9-------|
7---7---7---7-7-7-7---7---7---7---7-7-7-7-------|
------------------------------------------------|

i say dont you know...---------------------------------X2

----------------------------------------------------|
----------------------------------------------------|
----------------------------------------------------|
----------------------------------------------------|
-7---7---7---7-7-7-7--9---9---9---9-9-9-9-----------|
-5---5---5---5-5-5-5--7---7---7---7-7-7-7-----------|

||-----------------------------|----------------------------|
||---8-------------------------|--8-------------------------|
||-------9---9p7-----7---9-----|------9---9p7-----7---9-----|
||---------------9-------------|--------------9-------------|
||-----------------------------|----------------------------|
||-----------------------------|----------------------------|

----------------------------|------------------------------------|
--8-------------------------|------------------------------------|
------9---9p7-----7---9-----|-11-11-11-11-11-11-11-11-11-11-7-7--|
--------------9-------------|------------------------------------|
----------------------------|------------------------------------|
----------------------------|------------------------------------|


|-----------------------------|-------------------------------|
|-------12---------12---------|-------------------------------|
|--9-12-------9-12------9-----|--9-12-------9-12------9-------|
|-----------------------------|-------------------------------|
|-----------------------------|-------------------------------|
|-----------------------------|-------------------------------|


--------------------------/----------10----------10---------|
--------------------------/---------------------------------|
--9-12-------9-12------9--/---9---12-----9---12------11--9--|
--------------------------/---------------------------------|
--------------------------/---------------------------------|
--------------------------/---------------------------------|

|-------10---------10------------|---------|
|--------------------------------|---------|
|--9-12-------9-12------11-9-----|-11------|
|--------------------------------|---------|
|--------------------------------|---------|
|--------------------------------|---------|

-------------------------------------------|
-------------------------------------------|
-9---9---9---9-9-9-9---9---9---9---9-9-9-9-|
-9---9---9---9-9-9-9---9---9---9---9-9-9-9-|
-7---7---7---7-7-7-7---7---7---7---7-7-7-7-|
-------------------------------------------|


----------------------------------------|
----------------------------------------|
----------------------------------------|
----------------------------------------|X4
-8-8--7-7-6-6-5-5-3-3-3-3-3-3-3-3-------|
-6-6--5-5-4-4-3-3-1-1-1-1-1-1-1-1-------|

||-----------------------------|----------------------------|
||---8-------------------------|--8-------------------------|
||-------9---9p7-----7---9-----|------9---9p7-----7---9-----|
||---------------9-------------|--------------9-------------|
||-----------------------------|----------------------------|
||-----------------------------|----------------------------|

----------------------------|------------------------------------|
--8-------------------------|------------------------------------|
------9---9p7-----7---9-----|-11-11-11-11-11-11-11-11-11-11-7-7--|
--------------9-------------|------------------------------------|
----------------------------|------------------------------------|
----------------------------|------------------------------------|

--------------------------/----------10----------10---------|
--------------------------/---------------------------------|
--9-12-------9-12------9--/---9---12-----9---12------11--9--|
--------------------------/---------------------------------|
--------------------------/---------------------------------|
--------------------------/---------------------------------|

|-------10---------10------------|---------|
|--------------------------------|---------|
|--9-12-------9-12------11-9-----|-11------|X4
|--------------------------------|---------|
|--------------------------------|---------|
|--------------------------------|---------|


pause--- take me out!

||-----------------------------|----------------------------|
||---8-------------------------|--8-------------------------|
||-------9---9p7-----7---9-----|------9---9p7-----7---9-----|
||---------------9-------------|--------------9-------------|
||-----------------------------|----------------------------|
||-----------------------------|----------------------------|

----------------------------|------------------------------------|
--8-------------------------|------------------------------------|
------9---9p7-----7---9-----|-11-11-11-11-11-11-11-11-11-11-7-7--|
--------------9-------------|------------------------------------|
----------------------------|------------------------------------|
----------------------------|------------------------------------|


-------------------------------------------|
-------------------------------------------|
-9---9---9---9-9-9-9---9---9---9---9-9-9-9-|
-9---9---9---9-9-9-9---9---9---9---9-9-9-9-|
-7---7---7---7-7-7-7---7---7---7---7-7-7-7-|
-------------------------------------------|

----------------------------------------|
----------------------------------------|
----------------------------------------|
----------------------------------------|X4
-8-8--7-7-6-6-5-5-3-3-3-3-3-3-3-3-------|
-6-6--5-5-4-4-3-3-1-1-1-1-1-1-1-1-------|

-------------------------------------------|
-------------------------------------------|
-9---9---9---9-9-9-9---9---9---9---9-9-9-9-|
-9---9---9---9-9-9-9---9---9---9---9-9-9-9-|
-7---7---7---7-7-7-7---7---7---7---7-7-7-7-|
-------------------------------------------|

-------------------------------------------|
-------------------------------------------|
-9---9---9---9-9-9-9---9-------------------|
-9---9---9---9-9-9-9---9-------------------|
-7---7---7---7-7-7-7---7-------------------|
-------------------------------------------|


There we go that is the whole tab that has been done by kieran lowe!! 
of any problems!! visit www.myspace.com/5cardtrick for latest band news (my band)

ĂŽnscrie-te la newsletter


Join the ranks ! LIKE us on Facebook