Van Tango Bass Tab - Franz Ferdinand






Van Tango
Bass
Standard Tuning

Tab by: Adrian Stone

Intro

G|--------------------|
D|-5/6-6-6-6-6-6-6-6-6|
A|--------------------|
E|--------------------|   x2

Verse

G|------------------------|
D|-------5----------------|
A|-3-5-6---6-6-6-6-6-6-56|
E|------------------------|   x6

Pre-Chorus

G|--------------------|
D|-56-6-6-6-6-6-6-6-6|
A|--------------------|
E|--------------------|   x4

Chorus

G|-------------------|
D|--10--10-----------|
A|--------88-66-55-44|
E|-8---8-------------|   x4

Verse

G|------------------------|
D|-------5----------------|
A|-3-5-6---6-6-6-6-6-6-56|
E|------------------------|   x10

Pre-Chorus

G|--------------------|
D|-56-6-6-6-6-6-6-6-6|
A|--------------------|
E|--------------------|   x4

Chorus

G|-------------------|
D|--10--10-----------|
A|--------88-66-55-44|
E|-8---8-------------|   x4

Outro(live)

G|--------------------------------|
D|--------------------------------|
A|-----------------------------6-6|
E|-8-8-8-8-8-8-8-8-4-4-4-4-4-4----|   x8

G|--|
D|--|
A|--|
E|-8|

Outro(normal)

G|--------------------------------|
D|--------------------------------|
A|-----------------------------6-6|
E|-8-8-8-8-8-8-8-8-4-4-4-4-4-4----|   x8

Chorus

G|-------------------|
D|--10--10-----------|
A|--------88-66-55-44|
E|-8---8-------------|   x4

G|--------------------|
D|-56-6-6-6-6-6-6-6-6|
A|--------------------|
E|--------------------|
(Fades out)

ĂŽnscrie-te la newsletter


Like us on Facebook