Walk Away (ver2) Bass Tab - Franz Ferdinand






Franz Ferdinand
Walk away

Intro

G|--------------------------------------------|x2
D|-----------------4--------------------------|
A|---7-7----5-5-2---2-9-99-9----|
E|-5------3-----------------------------------|

Verse

|-------------------|--------------------|
|-------------------|--------------------|
|-5---------2----9--|-5---------2----10--|
|------5-----------/|------5-------------|

|---------------------------------------------|
|---------------------------------------------|
|-5-5-7---------------------------------------|
|-------5-5-5-3-3-3-3-3-3-3-3-3-3-3-3-3-3-3-3-|

|----------------------------|
|----------------------------|
|-5-55-7---------------------|
|--------5-55-7-2-22-22-22-2-|

|-------------------------------------|
|--------4----------------------------|
|-5---5-7----------2-22-2/-10-1010-10-|
|---5-------5-55-7--------------------|

|------------------------------------------------------|
|--------4-------------4-------------------------------|
|-5---5-7----------2-2---2/-10-1010-10-9-9-9-9-9-9-9-9-|
|---5-------5-55-7-------------------------------------|

Pre-Chorus

|-------------------|
|-------------------|
|-------------------|
|-55----55----66----|

Chorus

|----------------------------------------------------------------------|
|----------------------------------------------------------------------|
|-5-5-5-578--------87--5-5-5-578--------87-5-5-5-578------------|
|-----------6-6-6-6--------------6-6-6-6--------------3-3-3-345--------|

---------------------------------------------------------------------|
---------------------------------------------------------------------|
--5-5-5-578---------5-5-5-5---------3-3-3-3--------------------------|
------------6-6-6-6---------5-5-5-5---------3-3-3-3-5555555555555555-|

Bridge

G|--------------------------------------------|x2
D|-----------------4--------------------------|
A|---7-7----5-5-2---2-9-99-9----|
E|-5------3-----------------------------------|

Verse

|-------------------|--------------------|
|-------------------|--------------------|
|-5---------2----9--|-5---------2----10--|
|------5-----------/|------5-------------|

|---------------------------------------------|
|---------------------------------------------|
|-5-5-7---------------------------------------|
|-------5-5-5-3-3-3-3-3-3-3-3-3-3-3-3-3-3-3-3-|

|----------------------------|
|----------------------------|
|-5-55-7---------------------|
|--------5-55-7-2-22-22-22-2-|

|-------------------------------------------------------------------------------------|
|-------------------------------------------------------------------------------------|
|-5-5-5-578------------------------------------------99-99-99-99----------------------|
|-----------7-7-7-7-5-5-5-5-7-7-7-7-3-3-3-3-5-5-5-5----9-9-9-9---|

Pre-Chorus

|-------------------|
|-------------------|
|-------------------|
|-55----55----66----|

Chorus

|----------------------------------------------------------------------|
|----------------------------------------------------------------------|
|-5-5-5-578--------87--5-5-5-578--------87-5-5-5-578------------|
|-----------6-6-6-6--------------6-6-6-6--------------3-3-3-345--------|

---------------------------------------------------------------------|
---------------------------------------------------------------------|
--5-5-5-578---------5-5-5-5---------3-3-3-3-5-5-5-5------------------|
------------6-6-6-6---------5-5-5-5-----------------5555555555555555-|

Outro

|-------------------|-------------------|
|-------------------|-------------------|
|-5---------2----9--|-5---------2----9--|
|------5-----------/|------5------------|

ĂŽnscrie-te la newsletter


Like us on Facebook