Walk Away Bass Tab - Franz Ferdinand






       Walk Away                                     


Bass  I know I kinda lost track towards the end, So it's not 100% but its all in key with the song.
                                                                        
G||--2--------------2----|--0--------------0----|--4---------4---------|
D||---------2--2---------|---------0--0---------|---------4-------0----|
A||----------------------|----------------------|-----------------5/---|
E||----------------------|----------------------|----------------------|


                                                                     
-----------------7/---|--2--------------2----|--0--------------0----|
----------------------|---------2--2---------|---------0--0---------|
--9------9--9---------|----------------------|----------------------|
----------------------|----------------------|----------------------|


                                                                  
--4---------4---------|----------------------|-------------------|
---------4------------|----------------------|-------------------|
-----------------5/---|--9------9--9----9/---|--5----------------|
----------------------|----------------------|-------------------|


                                                            
-------------------|-------------------|-------------------|
-------------------|-------------------|--4----------------|
--0----------------|--2----------------|-------------------|
-------------------|-------------------|-------------------|


                                                               
--------------------|--2------------2----|--4------------4----|
--0------------0----|--------------------|--------------------|
--------------------|--------------------|--------------------|
--------------------|--------------------|--------------------|


                                                                       
--0------------0----|----------------------|--------------------------|
--------------------|--0------0------0--0--|--------------------------|
--------------------|----------------------|--0--0--0--0--0--0--0--0--|
--------------------|----------------------|--------------------------|


                                                                             
--------------------------|--------------------------|----------------------|
--------------------------|--------------------------|--0------0------0--0--|
--------------------------|--------------------------|----------------------|
--3--3--3--3--3--3--3--3--|--3--3--3--3--3--3--3--3--|----------------------|


                                                                     
----------------------|----------------------|----------------------|
----------------------|--4------4------4--4--|--4------4------4--4--|
--0------0------0--0--|----------------------|----------------------|
----------------------|----------------------|----------------------|


                                                                      
-----------------------|--2-------------------|-----------------4----|
--0--------------0--4--|----------------------|------------4---------|
---------0--5----------|--0------0--0----5/---|--2------2-------2/---|
-----------------------|----------------------|----------------------|


                                                                      
----------------------|-----------------------|--2-------------------|
--5------5------5--5--|--0--------------0--4--|----------------------|
--5-------------------|---------0--5----------|--0------0--0----5/---|
----------------------|-----------------------|----------------------|


                                                                     
-----------------4----|----------------------|----------------------|
------------4---------|--5------5------5--5--|--4------4--4------4--|
--2------2-------2/---|--5-------------------|----------------------|
----------------------|----------------------|----------------------|


                                                                 
----------------------|--------------------|--------------------|
--4----4----4----4----|--------------------|--------------------|
----------------------|--0--0--------------|--0--0--------------|
----------------------|--------------------|--------------------|


                                                                       
--------------------|------------------------|------------------------|
--------------------|------------------------|------------------------|
--1--1--------------|--5----5----5---5-7--8--|------------------8--7--|
--------------------|------------------------|--6----6----6---6-------|


                                                                           
------------------------|------------------------|------------------------|
------------------------|------------------------|------------------------|
--5----5----5---5-7--8--|------------------8--7--|--5----5----5---5-7--8--|
------------------------|--6----6----6---6-------|------------------------|


                                                                           
------------------------|------------------------|------------------------|
------------------------|------------------------|------------------------|
------------------8--7--|--5----5----5---5-7--8--|------------------8--7--|
--3----3----3---3-------|------------------------|--6----6----6---6-------|


                                                                     
----------------------|----------------------|----------------------|
----------------------|----------------------|----------------------|
--5----5----5----5----|--0----0----0----0----|--3----3----3----3----|
----------------------|----------------------|----------------------|


                                                                     
----------------------|----------------------|--2--------------2----|
----------------------|----------------------|---------2--2---------|
----------------------|----------------------|----------------------|
--3----3----3----3----|--5----5----5----5----|----------------------|


                                                                     
--0--------------0----|--4---------4---------|-----------------7/---|
---------0--0---------|---------4-------0----|----------------------|
----------------------|-----------------5/---|--9------9--9---------|
----------------------|----------------------|----------------------|


                                                                     
--2--------------2----|--0--------------0----|--4---------4---------|
---------2--2---------|---------0--0---------|---------4------------|
----------------------|----------------------|-----------------5/---|
----------------------|----------------------|----------------------|


                                                               
----------------------|-------------------|-------------------|
----------------------|-------------------|-------------------|
--9------9--9----9/---|--5----------------|--0----------------|
----------------------|-------------------|-------------------|


                                                             
-------------------|-------------------|--------------------|
-------------------|--4----------------|--0------------0----|
--2----------------|-------------------|--------------------|
-------------------|-------------------|--------------------|


                                                               
--2------------2----|--4------------4----|--0------------0----|
--------------------|--------------------|--------------------|
--------------------|--------------------|--------------------|
--------------------|--------------------|--------------------|


                                                                             
----------------------|--------------------------|--------------------------|
--0------0------0--0--|--------------------------|--------------------------|
----------------------|--0--0--0--0--0--0--0--0--|--------------------------|
----------------------|--------------------------|--3--3--3--3--3--3--3--3--|


                                                                         
--------------------------|----------------------|----------------------|
--------------------------|--0------0------0--0--|----------------------|
--------------------------|----------------------|--0------0------0--0--|
--3--3--3--3--3--3--3--3--|----------------------|----------------------|


                                                                      
----------------------|----------------------|-----------------------|
--4------4------4--4--|--4------4------4--4--|-----------------4--7--|
----------------------|----------------------|--5------0--5----------|
----------------------|----------------------|-----------------------|


                                                                          
------------------------|-----------------------|------------------------|
------------------------|-----------------0--4--|------------------------|
--2------2--2--2--0--2--|--5------0--5----------|--2------2--2--2--2-----|
------------------------|-----------------------|---------------------7/-|


                                                                        
------------------------|-----------------------|----------------------|
---------5--------------|--------------------5--|--4---------4---------|
------------------2--5--|--5------2--2----5-----|---------4-------4----|
--3---------3--3--------|-----------------------|----------------------|


                                                                 
----------------------|--------------------|--------------------|
--4----4----4----4----|--------------------|--------------------|
----------------------|--0--0--------------|--0--0--------------|
----------------------|--------------------|--------------------|


                                                                       
--------------------|------------------------|------------------------|
--------------------|------------------------|------------------------|
--1--1--------------|--5----5----5---5-7--8--|------------------8--7--|
--------------------|------------------------|--6----6----6---6-------|


                                                                           
------------------------|------------------------|------------------------|
------------------------|------------------------|------------------------|
--5----5----5---5-7--8--|------------------8--7--|--5----5----5---5-7--8--|
------------------------|--6----6----6---6-------|------------------------|


                                                                           
------------------------|------------------------|------------------------|
------------------------|------------------------|------------------------|
------------------8--7--|--5----5----5---5-7--8--|------------------8--7--|
--3----3----3---3-------|------------------------|--6----6----6---6-------|


                                                                     
----------------------|----------------------|----------------------|
----------------------|----------------------|----------------------|
--5----5----5----5----|--0----0----0----0----|--3----3----3----3----|
----------------------|----------------------|----------------------|


                                                                         
----------------------|----------------------|--------------------------|
----------------------|----------------------|--------------------------|
----------------------|----------------------|--------------------------|
--3----3----3----3----|--5----5----5----5----|--5--5--5--5--5--5--5--5--|


                                                                            
------------------|------------------|------------------|------------------|
------------------|------------------|------------------|------------------|
------------------|------------------|------------------|------------------|
------------------|------------------|------------------|------------------|


                                                          
------------------|------------------|------------------||
------------------|------------------|------------------||
------------------|------------------|------------------||
------------------|------------------|------------------||



ĂŽnscrie-te la newsletter


Join the ranks ! LIKE us on Facebook