What You Meant (ver3) Tab - Franz Ferdinand






-------------------------------------------------------------------------------
     SONG NAME - Band Name
-------------------------------------------------------------------------------
Tabbed by:
Email:

Tuning:
INTRO (repeat this bit 4 times)
e|---------------------------------------------------------------------------|
B|---------------------------------------------------------------------------|
G|---------------------------------------------------------------------------|
D|---------------------------------------------------------------------------|
A|-10/-------5--5------------------------------------------------------------|

E|---------7---7-7-6-5-6-8----------------------------------------------------
VERSE (this part repeats a few times)
e|---------------------------------------------------------------------------|
B|---------------------------------------------------------------------------|
G|-------------2---4--2--------------2--4--2---------------------------------|
D|--5--4---2------------2--0--4---2-----------2------------------------------|
A|---------------------------------------------------------------------------|
E|---------------------------------------------------------------------------|
PRE-CHORUS  (these chords are played like staccato you have to listen for the change during this part)
e|---------------------------------------------------------------------------|
B|---3-----------1-----------------------------------------------------------|
G|---4-----------3-----------------------------------------------------------|
D|---5-----------2-----------------------------------------------------------|
A|---5-----------3-----------------------------------------------------------|
E|---------------------------------------------------------------------------|
 CHORUS
e|---------------------------------------------------------------------------|
B|---------------------------------------------------------------------------|
G|---------------------------------------------------------------------------|
D|----------------------------------------7-7--5--7--5-----------------------|
A|------------5-5--3--5------3--5--3-------------------7---------------------|
E|--3--1-3-1-------------------------5-5-------------------------------------|


there you go you can easily figure out the arrangement and speed of the song youself
 

ĂŽnscrie-te la newsletter


Join the ranks ! LIKE us on Facebook