You Could Have It So Much Better Bass Tab - Franz Ferdinand






            You Could Have It So Much Better
                             Franz Ferdinand

This is my first tab for bass. Hope it's what your looking for. Any corrections, 
the like can be emailed to me, or leave a comment here.

Tabbed By: Astro0930
e-mail: devils38matt@yahoo.com

Tuning:Standard

Verse - Bass comes in at "As I look at you now..."
 Play 2x.
G|---------------------------------------|
D|---------------------------------------|
A|--7-7-7-7--3-3-3-3---------0-0-0-0-----|
E|-------------------2-2-2-2-------------|

 Chorus
  Play 2x
G|--------------------------------------|
D|--------------------------------------|
A|----------33333333----------00000000--|
E|-00000000----------22222222-----------|

 Post Chorus
   Play 2x
G|----------------------------------|
D|----------------------------------|
A|---------3---3-----------0---0----|
E|-0---0-----------2---2------------|

 Verse
  Play 2x                                Then this
G|-------------------------------------|------------------|
D|-------------------------------------|------------------|
A|----------3-3-3-3----------0-0-0-0---|---------0-0-0-0--|
E|-0-0-0-0-----------2-2-2-2-----------|-2-2-2-2----------|

 Play 2x
G|-------------------------------------|
D|-------------------------------------|
A|----------3-3-3-3----------0-0-0-0---|
E|-0-0-0-0-----------2-2-2-2-----------|


 Chorus
  Play 2x (On second repeat, play last note 8 more times.)
G|---------------------------------------|
D|---------------------------------------|
A|----------33333333----------00000000---|
E|-00000000----------22222222------------|

 Solo

G|-----------------------------------|-------------------------------------|
D|-----------------------------------|-------------------------------------|
A|3333333333333333-------------------|-------------------0-0--0-0--0-0--0-0|
E|------------------0000000000000000-|2-2--2-2--2-2--2-2-------------------|

 Chorus
  Play 2x
G|---------------------------------------|
D|---------------------------------------|
A|----------33333333----------00000000---|
E|-00000000----------22222222------------|

 Verse
  Play 3x
G|-------------------------------------|
D|-------------------------------------|
A|----------3-3-3-3----------0-0-0-0---|
E|-0-0-0-0-----------2-2-2-2-----------|

Chorus
  Play 4x
G|----------------------------------------|
D|----------------------------------------|
A|----------33333333----------00000000----|
E|-00000000----------22222222-------------|

 End on:
G|-----|
D|-----|
A|--3--|
E|-----|

| /  slide up
|   slide down
| h  hammer-on
| p  pull-off
| ~  vibrato
| +  harmonic
| x  Mute note
===============================================================================

ĂŽnscrie-te la newsletter


Join the ranks ! LIKE us on Facebook