Your Diary (ver2) Tab - Franz Ferdinand






[Franz Ferdinand - Your Diary] 
sam se to zrobilem! ha !
tabbed by Lucjan a.k.a. malyna*



 intro*

e |------------------------------------------------------------|
H |------------------------------------------------------------|
G |------5-5-------------------------5-5---7-10--10-10-10-9-7--| 
D |--7-7-----7-7--7-7-5-7-3------7-7-----7---------------------|
A |-------------------------7-5--------------------------------|
E |------------------------------------------------------------|


 verse*

e |-1-1-1-1-1-------1-1-1-1-1----33-----1-1-1-1-1-------1-1-1-1-1----55---|
H |-3-3-3-3-3-55----3-3-3-3-3----33-----3-3-3-3-3-55----3-3-3-3-3----55---|
G |-----------55----------------------------------55----------------------| 
D |-----------------------------------------------------------------------|
A |-----------------------------------------------------------------------|
E |-----------------------------------------------------------------------|


 chours*

e |-1-1--33--1-------1----3-3-1-3------------|
H |-3-3--33--3-------3----1-1-3-3------------|
G |------------------------------------------| 
D |------------------------------------------|
A |------------------------------------------|
E |------------------------------------------|



e |-------------------------------------------------------------------------------------|
H |----3-1-3-1-3-1-3-1--3--5-3-5-3-5-3-5-3--5--6-5-6-5-6-5-6-5--6--5-3-5-3-5-3-5-6-5----|
G |-------------------------------------------------------------------------------------|
D |-------------------------------------------------------------------------------------|
A |-------------------------------------------------------------------------------------|
E |-------------------------------------------------------------------------------------|

ĂŽnscrie-te la newsletter


Like us on Facebook