Your Diary Live Bass Tab - Franz Ferdinand






----------------------------------------------------------------------------
          Your Diary(live)-Franz Ferdinand
----------------------------------------------------------------------------

Tabbed By :Franz Fan


Tuning:EADG
Intro
G|--------------------7-----7-----------------------7-----7------------------|
D|----------------------------------3----3------------------------3-----3----|
A|----5-5-5(x12)----5-----5-----------------2-3---5-----5--------------------|
E|------------------------------51----1----------------------51-----1------|

G|--4-5----7-----7------------------------7-----7----------------4-5--------|
D|----------------------3-----3------------------------3-----3--------------|
A|-------5-----5-----------------2-3----5-----5-----------------------------|
E|------------------51-----1----------------------51-----1----------------|


Verse 1(play 7 times)                    Pre-chorus
G|-------7-----7---------------------------7-----7--------------------------|
D|--------------------3-----3----------------------------3-----3------------|
A|-----5-----5------------------2-3------5-----5-------------------1-2-3-4--|
E|----------------51-----1--------------------------51-----1--------------|

Chorus(play 4 times)
G|-----7--7---7--7-----5--5---5--5-------------------------------------------|
D|-------------------------------------5--5----5--5----3--3---3--------------|
A|---5-----5---------3------3-------------------------------------1/---------|
E|-----------------------------------3------3--------1------1----------------|

  Verse 2(play 4 times)        Pre Chorus
G|--------------------------------7-----7--------------------7--7------------|
D|--------------------------------------------3---3--------------------------|
A|----5-5-5----------2-3--------5-----5--------------2-3---5---5-------------|
E|-----------51-1-1----------------------51---1------------------51-------|pause

  Verse 3(play 8 times)
G|--------------------------------------------------------------------------|
D|--------------------------------------------------------------------------|
A|-----5----------2-3-------------------------------------------------------|
E|--------5--1-------------------------------------------------------------|

Verse 4(play 7 times)                    Pre-chorus
G|-------7-----7---------------------------7-----7--------------------------|
D|--------------------3-----3----------------------------3-----3------------|
A|-----5-----5------------------2-3------5-----5-------------------1-2-3-4--|
E|----------------51-----1--------------------------51-----1--------------|

Outro
G|-----------------------------------:--------------------------------------|
D|12(x8)-10(x8)-9(x8)--8(x8)---------:--------------------------------------|
A|----------------------------x2-----:-----------------------------x2-------|
E|-----------------------------------:---10(x8)-8(x8)-7(x8)-6(x8)-----------|
end on
E|--10--|

Playing order:
Intro(x1)
Verse 1(x7)
Pre chorus(x1)
Chorus(x2)
Intro(x1)play without 5 5 5 12 times
Verse 2(x4)
Pre chorus(x1)
Chorus(x2)
Verse 3(x8)
Verse 4(x4)
Outro

ĂŽnscrie-te la newsletter


Like us on Facebook