Your Diary Tab - Franz Ferdinand






-------------------------------------------------------------------------------
     Your Diary - Franz Ferdinand
-------------------------------------------------------------------------------
Tabbed by: Patrick Fransz
Email: n/a

Tuning: Standard

e |--1--------|
B |3--3-3-3-1-|
G |-----------|
D |-----------| *SILENCE*
A |-----------|
E |-----------|

Intro
e |--1--------------------------------------------------------------------|
B |3--3-1-1--1--------------3-3-3-3-3-3-3-1-3-3-3-1-3-1-1--1--------------|
G |--------2--2-2-0--------------------------------------2--2-2-0---------|
D |-----------------3-2-0-0---------------------------------------3-2-0-0-|
A |-----------------------------------------------------------------------|
E |-----------------------------------------------------------------------|

e |--------|
B |------1-|
G |---0-2--|  * REPEAT INTRO WITH LYRICS *
D |2-3-----|
A |--------|
E |--------|



e|---------------------------|
B|---------------------------|
G|-------------0-2-3-2-0-----|
D|-0--0-0--2-3-----------3-2-|         X 2
A|---------------------------|
E|---------------------------|

e|---------------------------|
B|---------------------------|
G|-7--7-7--7--7-7------------|
D|-7--7-7--7--7-7------------|         X 6  
A|-5--5-5--5--5-5------------|
E|---------------------------|

e|----------------------------------------------------|
B|----------------------------------------------------|
G|-7-7-7-7---7---7-10-10-10-10-10-9-9-9-9-9-----------|
D|---------7---7--------------------------------------|      X 2
A|----------------------------------------------------|
E|----------------------------------------------------|

e|----------------------------------------------------|
B|----------------------------------------------------|
G|-------------10-7------10-10-10-10-10-9-9-9-9-9-----|
D|-7-10-10-7h10-----7-10------------------------------|
A|----------------------------------------------------|
E|----------------------------------------------------|

Dm (better played as bar chord)

Its the year 200, and we're back on the dole...

* Thats all iv got so far! This is a great song and i htink the earlier version
(above) is much better than the album version.  The lead guitar above is a bit
patchy but its the basic tune, best played arpegio!* PS. thanks to whoever submitted
version one of the tab!

-------------------


ĂŽnscrie-te la newsletter


Join the ranks ! LIKE us on Facebook