Supermodel Baby Intro Tab - FREAK KITCHEN






-------------------------------------------------------------------------------
     Supermodel Baby - Freak Kitchen
-------------------------------------------------------------------------------
Tabbed by:GRaham
Email:

Tuning:EADGBe
I couldn't find a tab for this, even thought it's probly WAY off, i tried

e|--15b---12---------12----------------------------------R------------------|
B|-------------15-----------15--12--15----------------------E---------------|
G|---------------------------------------14---12---------------P------------|
D|--------------------------------------------------14-----------E----------|
A|------------------------------------------------------------------A-------|
E|---------------------------------------------------------------------T----|






Like us on Facebook