23 Beat Off (ver2) Tab - Fugazi






e|---------------------------------------------------------------------------|
B|-----------10----------------12--------------------------------------------|
G|-----------9-----------------11--------------------------------------------|
D|-2/-4-4/-7-7-------2/-4-4/-9-9-------2-------------------------------------|
A|-2/-4-4/-7---------2/-4-4/-9---------2-------------------------------------|
E|-------------------------------------0-------------------------------------|

e|---------------------------------------------------------------------------|
B|---------------------------------------------------------------------------|
G|---------------------------------------------------------------------------|
D|-----2--2h4p2-------------2---2h4p2----------------------------------------|
A|---4--4-------5---4b----4---4-------5---4b---------------------------------|
E|----------------3---------------------3----2h5-0---------------------------|






Like us on Facebook