Arpeggiator Bass Tab - Fugazi






----------------------------------------------------------------------------
    Arpeggiator - Fugazi
----------------------------------------------------------------------------

Tabbed By : Paul Cox
e-mail: paul_cox1@hotmail.co.uk
This song is the tenth track on Fugazi's album "End Hits."
Tuning: EADG

This is a nice line once you've got it down!

Main Riff
G|-------------------9--9-9-9---9--------------|
D|-------------9-6-9--9-------9---9-6-9-6--6---|
A|----7-11-7-11--------------------------7--7--| X lots
E|--0------------------------------------------|

Riff 2
G|-----------------------------|
D|-----------------------------|
A|-------------------------5-5-|
E|--0--0--0--0--5-5-5-4-4-4----|

Riff 3
G|------------------------------------|
D|------------------------------------|
A|----9-9-9-9-9-9-9-9-1010101011111111|
E|----7-7-7-7-7-7-7-7-8-8-8-8-9-9-9-9-|

(I'm not 100% on this bit as I am sitting here without the song available to listen to, 
hey, it's the easiest part and the rest is pretty much correct so don't be too harsh!)

Play it with a PICK!

Please leave a rating!

http://joelally.com/
http://www.myspace.com/joelallymusic
http://www.dischord.com/bands/joelally.shtml






Like us on Facebook