Kill Bass Tab - Fugazi






Fugazi - The Kill


standard tuning from low to high E,A,D,G


* - hold note
h - hammer on


G--|------------------------------------------------------|
D--|------------------------------------------------------|
A--|-19-19---------19-19--------17-17---------------------|
E--|-------17*-----------15*-----------19*-17h19h17h19*---|

Play that until your mum dies. Then there's this other bit.
G--|------------------------------------------|--------------------|
D--|------------------------------------------|--------------------|
A--|-19-19------19-19-----19-19-----19-19-7*--|--7*------7*-----7*-|
E--|-------17*--------15*-------17*-------7*--|--7*------7*-----7*-|etc

G--|----------------------------|
D--|----------------------------|
A--|---9---7h9-------9---7h9----|
E--|-7---7-----9---7---7-----9--|
play that one a lot then go back to the main riff

Play it all through again until you get to the interlude.
G--|-----------------------------------|
D--|-----------------------------------|
A--|---9---7h9-9*-------9---7h9--------|
E--|-7---7------------7---7-----7*-----|
play that twice

then this once
G--|---------------|
D--|---------------|
A--|---2---0h2-----|
E--|-0---0-----0*--|

then play this one again till the end
G--|----------------------------|
D--|----------------------------|
A--|---9---7h9-------9---7h9----|
E--|-7---7-----9---7---7-----9--|






Like us on Facebook