Kill Tab - Fugazi






Verse

G-9-9-------9-9-------9-9----------------|
D-----7---------5---------9-----7h9-7h9--|
A----------------------------------------|
E----------------------------------------|

Chorus

G---------------------------|
D-9-9-9-9-7-----------------|
A-------------10-10-10-10-9-|
E---------------------------|

Break

G------------------------|
D------------------------|
A----9----9----9----9----|
E------------------------|

Bridge

G-----------------------------|
D-----------------------------|
A---7---7h9-9-----7---7-9-9---|
E-9---9-------9-9---9-------9-|






Like us on Facebook