Long Division (ver2) Bass Tab - Fugazi






----------------------------------------------------------------------------
     LONG DIVISION- Fugazi
----------------------------------------------------------------------------

Tabbed By: the wurst


Tuning: standard
Intro        3x                  Bass does intro 2x, then verse
G|-7--6-7-9---|--------------|----------------------------------------------|
D|----------9-|-97---7/9----|----------------------------------------------|
A|------------|------------7-|----------------------------------------------|
E|------------|--------------|----------------------------------------------|
Verse                                repeat until end
G|--------11----976--------------|----------------------------------------|
D|---------------------------------|----------------------------------------|
A|-----12-----0--------7----10-12-|----------------------------------------|
E|-10--------------------0---------|----------------------------------------|
End
G|---------------|----------------------------------------------------------|
D|---------------|----------------------------------------------------------|
A|---------------|----------------------------------------------------------|
E|-75---5/7---0-|----------------------------------------------------------|

This song is not that complicated, you just have to get the bass and the guitar together 
right.
peace.

| /  slide up
|   slide down
| h  hammer-on
| p  pull-off
| ~  vibrato
| +  harmonic
| x  Mute note






Like us on Facebook