Long Division (ver3) Bass Tab - Fugazi






It was hard to get all the notes, but I finally did it, so here it is.

Main Riff

                                          *The Last One*
G:-----11/9-9/7---------------------|-----11/9-9/7-----------|
D:-7/9------------------------5-5/7-|-7/9--------------------|
A:---------------10/7-7-7-7-7-------|---------------10/7-7~--|
E:----------------------------------|------------------------|

Or
                                                           *The Last One*
G:-----------------------------------------------|------------------------------|
D:-------16/14-14/12-----------------------------|-------16/14-14/12------------|
A:-12/14--------------------------------10-10/12-|-12/14------------------------|
E:--------------------15/12-12-12-12-12----------|-------------------15/12-12~--|

The first one sounds better.

That's it.

Enjoy.






Like us on Facebook