Shaken All OverBass Tab - Fugazi






fugazi
song: shaken all over


G:----------------------------------
D:----------------------------------
A:-----7-7-5-5----------7-7-5-5------
E:-0-0---------7-7--0-0---------0-0--

then it goes higher like this:


G:-----------------------------------
D:-----7-7-5-5----------7-7-5-5------
A:-0-0---------7-7--0-0---------0-0--
E:-----------------------------------

after every third rep. of each riff he'll bend the 7th fret and stop and then start over again.

deeyouembe@godisdead.com






Like us on Facebook