Already Gone Intro Tab - Further Seems Forever






-------------------------------------------------------------------------------
     Already Gone - Further Seems Forever
-------------------------------------------------------------------------------
Tabbed by: Mike Pflueger
Email: Fleug86@aol.com

Tuning: 1/2 step down as always



Finger picked
     
    (Swing)
    1 + 2 + 3 + 4 + 5 + 6 + 1 + 2 + 3 + 4 + 5 + 6 + 1 + 2 + 3 + 4 + 5 + 6    

Eb|-4-----------7-----------4-----------------------0-----------2---------|
Bb|-------0---0-------7-----------2-----0-----2---------2-0---0-------4---|
Gb|-----6-----------6-----------2-----2-----2-----2-----------------4---4-|
Db|---6-----6-----6-----6-----2-----2-----2-----2-----2-----2-----4-------|
Ab|-4-----------6-----------0-----------------------4-----------2---------|
Eb|-----------------------------------------------------------------------|


ĂŽnscrie-te la newsletter


Join the ranks ! LIKE us on Facebook