Just Until Sundown Tab - Further Seems Forever




Further Seems Forever- Just Until Sundown
tabbed by Justin W (justinw@twcny.rr.com)

Intro:
  B     B      E     B       Ab     F#     E
|--------------------------|---------------------------|
|-------0------------0-----|---0------0--------0-------|
|---3-----3------------3---|-----3------3----3---4/64-|
|-----4-----4--21/2-----4-|---------------------------|
|-2------------------------|---------------------------|
|--------------------------|-4------2------0-----------|


|------------------------------------------------------|
|----7------19-----19------------------------19--------|
|-/8---4--16--16-16--16--1615/16-16p15p13------16-----|
|-----------------------------------------15-----------|
|------------------------------------------------------|
|------------------------------------------------------|

Pre-Verse:                Verse:

  Ab  F#  E
|----------------------||-----------------------------||
|----------------------||:-------0------------0------:||
|----------------------||----3-----3------------3-----||
|-666-444-222222-------||------4-----4--2/12-----4---||
|-666-444-222222-------||:-2-------------------------:||
|-444-222-000000-------||-----------------------------||

Pre-Chorus:Chorus:

|----------------------|----------------------------------------------|
|----------------------|----------------------------------------------|
|----------------------|4-4444-444------------------------------------|
|-6-666--4-444--222222-|4-4444-444--2-2222-222--6-6666-666-2-2222-222-|
|-6-666--4-444--222222-|2-2222-222--2-2222-222--6-6666-666-2-2222-222-|
|-4-444--2-222--000000-|------------0-0000-000--4-4444-444-0-0000-000-|

Chorus continued:

|-----------------------------------------------------|
|-----------------------------------------------------|
|---------999999--------------------------------------|
|-666666--999999--6-666--2-222--4-44444---------------|
|-666666--777777--6-666--2-222--4-44444---------------|
|-444444--777777--4-444--0-000--2-22222---------------|


Bridge:

|--------------------------------------------------------|
|--------------------------------------------------------|
|----------999999--15-x-11-x-15-x-11-x-15-x-11-x-15-x-11-|
|--666666--999999---x-x--x-x--x-x--x-x--x-x--x-x--x-x--x-|
|--666666--777777--13-x--9-x-13-x--9-x-13-x--9-x-13-x--9-|
|--444444--777777----------------------------------------|

ĂŽnscrie-te la newsletter


Join the ranks ! LIKE us on Facebook