Hounds Of Love Bass Tab - Futureheads






Hiya this is only my sencond tab on this website so like if its wrong tell me and i'll 
it.
xox invisible icklii xox

Verse
G-----------------------------------------------------------------------|
D-----------------------------------------------------------------------|
A--------------------7-7-7--7-7-7--7---5-5-5--5-5-5--5---4-4-4--4-4-4-4-|
E-5-5-5--5-5-5--5-------------------------------------------------------|

Chorus
G------------|
D------------|
A-9--7--5--4-|
E------------|

then
G------------|----|
D------------|----|
A-9--5--4--7-|--9-|
E------------|----|

Hope Yoe Liked It!
xox invisible icklii xox

ĂŽnscrie-te la newsletter


Like us on Facebook