Meantime Intro Tab - Futureheads






i love these guys

e-7------------------------------------------------------------------------|
b-7------------------------------------------------------------------------|
g-8------------------------------------------------------------------------|
d-9------------------------------------------------------------------------|
a-9---------------------------------------11-11-11-11-11-11----------------|
e-7 let ring-7-7-7-7-7-7-7--9-9-9-9-9-9-9-------------------11-11-11-11-11-|

The FALSE CONVERSATIONS riff below
e-----------------------|
b-----------------------|
g-11------11------------|
d-9---11---9---11---13--|
a------9-------9----11--|
e-----------------------|

e------------------------------|
b------------------------------|
g------------------------------|
d-9-11-11-11-11-11-9-6-6-6-6-6-|
a------------------------------|
e------------------------------|
palm mute the above


tabbed by stu.f    fentlegend@hotmail.com   boysintheband.co.uk forum member

Înscrie-te la newsletter


Like us on Facebook