Black Heart Queen Tab - Gallows






this was last week's free download from itunes and im pretty shure there a new band so look em up

e|-------------------------------------------------|
b|-------------------------------------------------|
g|-------------------------------------------------|
d|-------------------------------------------3~-6~-|
a|-0~x0-0-0-0-0-0-0-0-0-0-0-0-0~x0-0-0-0-0-0-1~-4~-|
E|-0~x0-0-0-0-0-0-0-0-0-0-0-0-0~x0-0-0-0-0-0-------|

repeat twice, first repeat second guitar comes in playing the same thing second repeat 
come in then this with the second guitar playing the above and the 1st playing this the 
of the song

e|----------------|
b|----------------|
G|----------------|
d|----------------|
a|-3-5-3-6-3-5-0~-|
E|-3-5-3-6-3-5-0~-|

  this what i have so far its basically the whole song theres just the solo and a weird verse

ĂŽnscrie-te la newsletter


Like us on Facebook