In The Belly Of A Shark Solo (ver2) Tab - Gallows






Gallows-In the belly of a shark-solo
                                           Email:jimbojack1992@hotmail.com
By Jimbo181
                   b-bend             btd-Bend up then back down
[-x---x---x---x---x---x---x---------]--------------------------]
[-10--10--10--10--10--10--10--------]--------------------------]
[-12b-12b-12b-12b-12b-12b-12btd--10-]-----------10-------10--12]
[-----------------------------------]-12--10--12---10--12------]
[-----------------------------------]--------------------------]
[-----------------------------------]--------------------------]
                                                       h         h-hold
[-x---x---x---x---x---x---x---x---x---x---x---x--------x--]
[-10--10--10--13--13--13--16--16--16--15--15--15-------15-]
[-12b-12b-12b-15b-15b-15b-18b--18b--18b--17b--17b-----17b-]      p-pull of
[---------------------------------------------------------]
[---------------------------------------------------------]
[---------------------------------------------------------]
  h                                                     h
[--x-------x------------------------------x-------x----18-]
[-15---18--15----------------------------15--18--15-------]
[-17b------17btd---15--17-17p-17-17p-15--17b-----17btd----]
[---------------------------------------------------------]
[---------------------------------------------------------]
[---------------------------------------------------------]

                                  h
[-17--20p-17-20p-17-20p-20p-17----20b-]
[-------------------------------------]
[-------------------------------------]
[-------------------------------------]
[-------------------------------------]
[-------------------------------------]


ĂŽnscrie-te la newsletter


Like us on Facebook